ISO-10303-21;
HEADER;
/* Generated by software containing ST-Developer
 * from STEP Tools, Inc. (www.steptools.com) 
 */

FILE_DESCRIPTION(
/* description */ (''),
/* implementation_level */ '2;1');

FILE_NAME(
/* name */ 'ExtensionPCB.step',
/* time_stamp */ '2023-02-10T15:49:24+01:00',
/* author */ (''),
/* organization */ (''),
/* preprocessor_version */ 'ST-DEVELOPER v19.2',
/* originating_system */ 'Autodesk Translation Framework v11.17.0.187',

/* authorisation */ '');

FILE_SCHEMA (('AUTOMOTIVE_DESIGN { 1 0 10303 214 3 1 1 }'));
ENDSEC;

DATA;
#10=MECHANICAL_DESIGN_GEOMETRIC_PRESENTATION_REPRESENTATION('',(#13),#720);
#11=SHAPE_REPRESENTATION_RELATIONSHIP('SRR','None',#727,#12);
#12=ADVANCED_BREP_SHAPE_REPRESENTATION('',(#14),#719);
#13=STYLED_ITEM('',(#737),#14);
#14=MANIFOLD_SOLID_BREP('Body1',#444);
#15=CYLINDRICAL_SURFACE('',#476,1.4);
#16=CYLINDRICAL_SURFACE('',#477,1.4);
#17=FACE_BOUND('',#53,.T.);
#18=FACE_BOUND('',#54,.T.);
#19=FACE_BOUND('',#62,.T.);
#20=FACE_BOUND('',#63,.T.);
#21=CIRCLE('',#463,1.4);
#22=CIRCLE('',#464,1.4);
#23=CIRCLE('',#472,1.4);
#24=CIRCLE('',#473,1.4);
#25=FACE_OUTER_BOUND('',#48,.T.);
#26=FACE_OUTER_BOUND('',#49,.T.);
#27=FACE_OUTER_BOUND('',#50,.T.);
#28=FACE_OUTER_BOUND('',#51,.T.);
#29=FACE_OUTER_BOUND('',#52,.T.);
#30=FACE_OUTER_BOUND('',#55,.T.);
#31=FACE_OUTER_BOUND('',#56,.T.);
#32=FACE_OUTER_BOUND('',#57,.T.);
#33=FACE_OUTER_BOUND('',#58,.T.);
#34=FACE_OUTER_BOUND('',#59,.T.);
#35=FACE_OUTER_BOUND('',#60,.T.);
#36=FACE_OUTER_BOUND('',#61,.T.);
#37=FACE_OUTER_BOUND('',#64,.T.);
#38=FACE_OUTER_BOUND('',#65,.T.);
#39=FACE_OUTER_BOUND('',#66,.T.);
#40=FACE_OUTER_BOUND('',#67,.T.);
#41=FACE_OUTER_BOUND('',#68,.T.);
#42=FACE_OUTER_BOUND('',#69,.T.);
#43=FACE_OUTER_BOUND('',#70,.T.);
#44=FACE_OUTER_BOUND('',#71,.T.);
#45=FACE_OUTER_BOUND('',#72,.T.);
#46=FACE_OUTER_BOUND('',#73,.T.);
#47=FACE_OUTER_BOUND('',#74,.T.);
#48=EDGE_LOOP('',(#282,#283,#284,#285));
#49=EDGE_LOOP('',(#286,#287,#288,#289));
#50=EDGE_LOOP('',(#290,#291,#292,#293));
#51=EDGE_LOOP('',(#294,#295,#296,#297));
#52=EDGE_LOOP('',(#298,#299,#300,#301,#302,#303));
#53=EDGE_LOOP('',(#304));
#54=EDGE_LOOP('',(#305));
#55=EDGE_LOOP('',(#306,#307,#308,#309));
#56=EDGE_LOOP('',(#310,#311,#312,#313));
#57=EDGE_LOOP('',(#314,#315,#316,#317));
#58=EDGE_LOOP('',(#318,#319,#320,#321));
#59=EDGE_LOOP('',(#322,#323,#324,#325));
#60=EDGE_LOOP('',(#326,#327,#328,#329));
#61=EDGE_LOOP('',(#330,#331,#332,#333));
#62=EDGE_LOOP('',(#334));
#63=EDGE_LOOP('',(#335));
#64=EDGE_LOOP('',(#336,#337,#338,#339,#340,#341));
#65=EDGE_LOOP('',(#342,#343,#344,#345,#346,#347));
#66=EDGE_LOOP('',(#348,#349,#350,#351));
#67=EDGE_LOOP('',(#352,#353,#354,#355));
#68=EDGE_LOOP('',(#356,#357,#358,#359,#360,#361,#362,#363,#364,#365));
#69=EDGE_LOOP('',(#366,#367,#368,#369));
#70=EDGE_LOOP('',(#370,#371,#372,#373));
#71=EDGE_LOOP('',(#374,#375,#376,#377));
#72=EDGE_LOOP('',(#378,#379,#380,#381,#382,#383,#384,#385,#386,#387));
#73=EDGE_LOOP('',(#388,#389,#390,#391));
#74=EDGE_LOOP('',(#392,#393,#394,#395,#396,#397,#398,#399));
#75=LINE('',#600,#130);
#76=LINE('',#602,#131);
#77=LINE('',#604,#132);
#78=LINE('',#605,#133);
#79=LINE('',#609,#134);
#80=LINE('',#611,#135);
#81=LINE('',#613,#136);
#82=LINE('',#614,#137);
#83=LINE('',#616,#138);
#84=LINE('',#617,#139);
#85=LINE('',#620,#140);
#86=LINE('',#622,#141);
#87=LINE('',#623,#142);
#88=LINE('',#626,#143);
#89=LINE('',#628,#144);
#90=LINE('',#630,#145);
#91=LINE('',#632,#146);
#92=LINE('',#633,#147);
#93=LINE('',#641,#148);
#94=LINE('',#643,#149);
#95=LINE('',#645,#150);
#96=LINE('',#646,#151);
#97=LINE('',#650,#152);
#98=LINE('',#652,#153);
#99=LINE('',#654,#154);
#100=LINE('',#655,#155);
#101=LINE('',#657,#156);
#102=LINE('',#658,#157);
#103=LINE('',#662,#158);
#104=LINE('',#663,#159);
#105=LINE('',#664,#160);
#106=LINE('',#668,#161);
#107=LINE('',#670,#162);
#108=LINE('',#672,#163);
#109=LINE('',#673,#164);
#110=LINE('',#676,#165);
#111=LINE('',#678,#166);
#112=LINE('',#679,#167);
#113=LINE('',#682,#168);
#114=LINE('',#683,#169);
#115=LINE('',#690,#170);
#116=LINE('',#691,#171);
#117=LINE('',#692,#172);
#118=LINE('',#695,#173);
#119=LINE('',#696,#174);
#120=LINE('',#698,#175);
#121=LINE('',#700,#176);
#122=LINE('',#702,#177);
#123=LINE('',#703,#178);
#124=LINE('',#705,#179);
#125=LINE('',#708,#180);
#126=LINE('',#709,#181);
#127=LINE('',#711,#182);
#128=LINE('',#712,#183);
#129=LINE('',#714,#184);
#130=VECTOR('',#489,10.);
#131=VECTOR('',#490,10.);
#132=VECTOR('',#491,10.);
#133=VECTOR('',#492,10.);
#134=VECTOR('',#495,10.);
#135=VECTOR('',#496,10.);
#136=VECTOR('',#497,10.);
#137=VECTOR('',#498,10.);
#138=VECTOR('',#501,10.);
#139=VECTOR('',#502,10.);
#140=VECTOR('',#505,10.);
#141=VECTOR('',#506,10.);
#142=VECTOR('',#507,10.);
#143=VECTOR('',#510,10.);
#144=VECTOR('',#511,10.);
#145=VECTOR('',#512,10.);
#146=VECTOR('',#513,10.);
#147=VECTOR('',#514,10.);
#148=VECTOR('',#521,10.);
#149=VECTOR('',#522,10.);
#150=VECTOR('',#523,10.);
#151=VECTOR('',#524,10.);
#152=VECTOR('',#527,10.);
#153=VECTOR('',#528,10.);
#154=VECTOR('',#529,10.);
#155=VECTOR('',#530,10.);
#156=VECTOR('',#533,10.);
#157=VECTOR('',#534,10.);
#158=VECTOR('',#537,10.);
#159=VECTOR('',#538,10.);
#160=VECTOR('',#539,10.);
#161=VECTOR('',#542,10.);
#162=VECTOR('',#543,10.);
#163=VECTOR('',#544,10.);
#164=VECTOR('',#545,10.);
#165=VECTOR('',#548,10.);
#166=VECTOR('',#549,10.);
#167=VECTOR('',#550,10.);
#168=VECTOR('',#553,10.);
#169=VECTOR('',#554,10.);
#170=VECTOR('',#561,10.);
#171=VECTOR('',#562,10.);
#172=VECTOR('',#563,10.);
#173=VECTOR('',#566,10.);
#174=VECTOR('',#567,10.);
#175=VECTOR('',#570,1.4);
#176=VECTOR('',#573,1.4);
#177=VECTOR('',#576,10.);
#178=VECTOR('',#577,10.);
#179=VECTOR('',#580,10.);
#180=VECTOR('',#583,10.);
#181=VECTOR('',#584,10.);
#182=VECTOR('',#587,10.);
#183=VECTOR('',#588,10.);
#184=VECTOR('',#591,10.);
#185=VERTEX_POINT('',#598);
#186=VERTEX_POINT('',#599);
#187=VERTEX_POINT('',#601);
#188=VERTEX_POINT('',#603);
#189=VERTEX_POINT('',#607);
#190=VERTEX_POINT('',#608);
#191=VERTEX_POINT('',#610);
#192=VERTEX_POINT('',#612);
#193=VERTEX_POINT('',#619);
#194=VERTEX_POINT('',#621);
#195=VERTEX_POINT('',#625);
#196=VERTEX_POINT('',#627);
#197=VERTEX_POINT('',#629);
#198=VERTEX_POINT('',#631);
#199=VERTEX_POINT('',#634);
#200=VERTEX_POINT('',#636);
#201=VERTEX_POINT('',#639);
#202=VERTEX_POINT('',#640);
#203=VERTEX_POINT('',#642);
#204=VERTEX_POINT('',#644);
#205=VERTEX_POINT('',#648);
#206=VERTEX_POINT('',#649);
#207=VERTEX_POINT('',#651);
#208=VERTEX_POINT('',#653);
#209=VERTEX_POINT('',#660);
#210=VERTEX_POINT('',#661);
#211=VERTEX_POINT('',#666);
#212=VERTEX_POINT('',#667);
#213=VERTEX_POINT('',#669);
#214=VERTEX_POINT('',#671);
#215=VERTEX_POINT('',#675);
#216=VERTEX_POINT('',#677);
#217=VERTEX_POINT('',#681);
#218=VERTEX_POINT('',#684);
#219=VERTEX_POINT('',#686);
#220=VERTEX_POINT('',#689);
#221=VERTEX_POINT('',#694);
#222=VERTEX_POINT('',#707);
#223=EDGE_CURVE('',#185,#186,#75,.T.);
#224=EDGE_CURVE('',#185,#187,#76,.T.);
#225=EDGE_CURVE('',#188,#187,#77,.T.);
#226=EDGE_CURVE('',#186,#188,#78,.T.);
#227=EDGE_CURVE('',#189,#190,#79,.T.);
#228=EDGE_CURVE('',#189,#191,#80,.T.);
#229=EDGE_CURVE('',#192,#191,#81,.T.);
#230=EDGE_CURVE('',#190,#192,#82,.T.);
#231=EDGE_CURVE('',#187,#192,#83,.T.);
#232=EDGE_CURVE('',#191,#188,#84,.T.);
#233=EDGE_CURVE('',#186,#193,#85,.T.);
#234=EDGE_CURVE('',#193,#194,#86,.T.);
#235=EDGE_CURVE('',#194,#185,#87,.T.);
#236=EDGE_CURVE('',#190,#195,#88,.T.);
#237=EDGE_CURVE('',#195,#196,#89,.T.);
#238=EDGE_CURVE('',#196,#197,#90,.T.);
#239=EDGE_CURVE('',#197,#198,#91,.T.);
#240=EDGE_CURVE('',#198,#189,#92,.T.);
#241=EDGE_CURVE('',#199,#199,#21,.T.);
#242=EDGE_CURVE('',#200,#200,#22,.T.);
#243=EDGE_CURVE('',#201,#202,#93,.T.);
#244=EDGE_CURVE('',#201,#203,#94,.T.);
#245=EDGE_CURVE('',#204,#203,#95,.T.);
#246=EDGE_CURVE('',#202,#204,#96,.T.);
#247=EDGE_CURVE('',#205,#206,#97,.T.);
#248=EDGE_CURVE('',#205,#207,#98,.T.);
#249=EDGE_CURVE('',#208,#207,#99,.T.);
#250=EDGE_CURVE('',#206,#208,#100,.T.);
#251=EDGE_CURVE('',#203,#208,#101,.T.);
#252=EDGE_CURVE('',#207,#204,#102,.T.);
#253=EDGE_CURVE('',#209,#210,#103,.T.);
#254=EDGE_CURVE('',#210,#201,#104,.T.);
#255=EDGE_CURVE('',#202,#209,#105,.T.);
#256=EDGE_CURVE('',#211,#212,#106,.T.);
#257=EDGE_CURVE('',#211,#213,#107,.T.);
#258=EDGE_CURVE('',#214,#213,#108,.T.);
#259=EDGE_CURVE('',#212,#214,#109,.T.);
#260=EDGE_CURVE('',#212,#215,#110,.T.);
#261=EDGE_CURVE('',#216,#214,#111,.T.);
#262=EDGE_CURVE('',#215,#216,#112,.T.);
#263=EDGE_CURVE('',#213,#217,#113,.T.);
#264=EDGE_CURVE('',#217,#216,#114,.T.);
#265=EDGE_CURVE('',#218,#218,#23,.T.);
#266=EDGE_CURVE('',#219,#219,#24,.T.);
#267=EDGE_CURVE('',#220,#211,#115,.T.);
#268=EDGE_CURVE('',#197,#220,#116,.T.);
#269=EDGE_CURVE('',#196,#217,#117,.T.);
#270=EDGE_CURVE('',#195,#221,#118,.T.);
#271=EDGE_CURVE('',#215,#221,#119,.T.);
#272=EDGE_CURVE('',#219,#199,#120,.T.);
#273=EDGE_CURVE('',#218,#200,#121,.T.);
#274=EDGE_CURVE('',#194,#209,#122,.T.);
#275=EDGE_CURVE('',#190,#205,#123,.T.);
#276=EDGE_CURVE('',#221,#205,#124,.T.);
#277=EDGE_CURVE('',#222,#220,#125,.T.);
#278=EDGE_CURVE('',#198,#222,#126,.T.);
#279=EDGE_CURVE('',#206,#222,#127,.T.);
#280=EDGE_CURVE('',#189,#206,#128,.T.);
#281=EDGE_CURVE('',#193,#210,#129,.T.);
#282=ORIENTED_EDGE('',*,*,#223,.F.);
#283=ORIENTED_EDGE('',*,*,#224,.T.);
#284=ORIENTED_EDGE('',*,*,#225,.F.);
#285=ORIENTED_EDGE('',*,*,#226,.F.);
#286=ORIENTED_EDGE('',*,*,#227,.F.);
#287=ORIENTED_EDGE('',*,*,#228,.T.);
#288=ORIENTED_EDGE('',*,*,#229,.F.);
#289=ORIENTED_EDGE('',*,*,#230,.F.);
#290=ORIENTED_EDGE('',*,*,#231,.T.);
#291=ORIENTED_EDGE('',*,*,#229,.T.);
#292=ORIENTED_EDGE('',*,*,#232,.T.);
#293=ORIENTED_EDGE('',*,*,#225,.T.);
#294=ORIENTED_EDGE('',*,*,#223,.T.);
#295=ORIENTED_EDGE('',*,*,#233,.T.);
#296=ORIENTED_EDGE('',*,*,#234,.T.);
#297=ORIENTED_EDGE('',*,*,#235,.T.);
#298=ORIENTED_EDGE('',*,*,#227,.T.);
#299=ORIENTED_EDGE('',*,*,#236,.T.);
#300=ORIENTED_EDGE('',*,*,#237,.T.);
#301=ORIENTED_EDGE('',*,*,#238,.T.);
#302=ORIENTED_EDGE('',*,*,#239,.T.);
#303=ORIENTED_EDGE('',*,*,#240,.T.);
#304=ORIENTED_EDGE('',*,*,#241,.F.);
#305=ORIENTED_EDGE('',*,*,#242,.F.);
#306=ORIENTED_EDGE('',*,*,#243,.F.);
#307=ORIENTED_EDGE('',*,*,#244,.T.);
#308=ORIENTED_EDGE('',*,*,#245,.F.);
#309=ORIENTED_EDGE('',*,*,#246,.F.);
#310=ORIENTED_EDGE('',*,*,#247,.F.);
#311=ORIENTED_EDGE('',*,*,#248,.T.);
#312=ORIENTED_EDGE('',*,*,#249,.F.);
#313=ORIENTED_EDGE('',*,*,#250,.F.);
#314=ORIENTED_EDGE('',*,*,#251,.T.);
#315=ORIENTED_EDGE('',*,*,#249,.T.);
#316=ORIENTED_EDGE('',*,*,#252,.T.);
#317=ORIENTED_EDGE('',*,*,#245,.T.);
#318=ORIENTED_EDGE('',*,*,#253,.T.);
#319=ORIENTED_EDGE('',*,*,#254,.T.);
#320=ORIENTED_EDGE('',*,*,#243,.T.);
#321=ORIENTED_EDGE('',*,*,#255,.T.);
#322=ORIENTED_EDGE('',*,*,#256,.F.);
#323=ORIENTED_EDGE('',*,*,#257,.T.);
#324=ORIENTED_EDGE('',*,*,#258,.F.);
#325=ORIENTED_EDGE('',*,*,#259,.F.);
#326=ORIENTED_EDGE('',*,*,#260,.F.);
#327=ORIENTED_EDGE('',*,*,#259,.T.);
#328=ORIENTED_EDGE('',*,*,#261,.F.);
#329=ORIENTED_EDGE('',*,*,#262,.F.);
#330=ORIENTED_EDGE('',*,*,#258,.T.);
#331=ORIENTED_EDGE('',*,*,#263,.T.);
#332=ORIENTED_EDGE('',*,*,#264,.T.);
#333=ORIENTED_EDGE('',*,*,#261,.T.);
#334=ORIENTED_EDGE('',*,*,#265,.T.);
#335=ORIENTED_EDGE('',*,*,#266,.T.);
#336=ORIENTED_EDGE('',*,*,#267,.F.);
#337=ORIENTED_EDGE('',*,*,#268,.F.);
#338=ORIENTED_EDGE('',*,*,#238,.F.);
#339=ORIENTED_EDGE('',*,*,#269,.T.);
#340=ORIENTED_EDGE('',*,*,#263,.F.);
#341=ORIENTED_EDGE('',*,*,#257,.F.);
#342=ORIENTED_EDGE('',*,*,#237,.F.);
#343=ORIENTED_EDGE('',*,*,#270,.T.);
#344=ORIENTED_EDGE('',*,*,#271,.F.);
#345=ORIENTED_EDGE('',*,*,#262,.T.);
#346=ORIENTED_EDGE('',*,*,#264,.F.);
#347=ORIENTED_EDGE('',*,*,#269,.F.);
#348=ORIENTED_EDGE('',*,*,#266,.F.);
#349=ORIENTED_EDGE('',*,*,#272,.T.);
#350=ORIENTED_EDGE('',*,*,#241,.T.);
#351=ORIENTED_EDGE('',*,*,#272,.F.);
#352=ORIENTED_EDGE('',*,*,#265,.F.);
#353=ORIENTED_EDGE('',*,*,#273,.T.);
#354=ORIENTED_EDGE('',*,*,#242,.T.);
#355=ORIENTED_EDGE('',*,*,#273,.F.);
#356=ORIENTED_EDGE('',*,*,#235,.F.);
#357=ORIENTED_EDGE('',*,*,#274,.T.);
#358=ORIENTED_EDGE('',*,*,#255,.F.);
#359=ORIENTED_EDGE('',*,*,#246,.T.);
#360=ORIENTED_EDGE('',*,*,#252,.F.);
#361=ORIENTED_EDGE('',*,*,#248,.F.);
#362=ORIENTED_EDGE('',*,*,#275,.F.);
#363=ORIENTED_EDGE('',*,*,#230,.T.);
#364=ORIENTED_EDGE('',*,*,#231,.F.);
#365=ORIENTED_EDGE('',*,*,#224,.F.);
#366=ORIENTED_EDGE('',*,*,#236,.F.);
#367=ORIENTED_EDGE('',*,*,#275,.T.);
#368=ORIENTED_EDGE('',*,*,#276,.F.);
#369=ORIENTED_EDGE('',*,*,#270,.F.);
#370=ORIENTED_EDGE('',*,*,#239,.F.);
#371=ORIENTED_EDGE('',*,*,#268,.T.);
#372=ORIENTED_EDGE('',*,*,#277,.F.);
#373=ORIENTED_EDGE('',*,*,#278,.F.);
#374=ORIENTED_EDGE('',*,*,#240,.F.);
#375=ORIENTED_EDGE('',*,*,#278,.T.);
#376=ORIENTED_EDGE('',*,*,#279,.F.);
#377=ORIENTED_EDGE('',*,*,#280,.F.);
#378=ORIENTED_EDGE('',*,*,#280,.T.);
#379=ORIENTED_EDGE('',*,*,#250,.T.);
#380=ORIENTED_EDGE('',*,*,#251,.F.);
#381=ORIENTED_EDGE('',*,*,#244,.F.);
#382=ORIENTED_EDGE('',*,*,#254,.F.);
#383=ORIENTED_EDGE('',*,*,#281,.F.);
#384=ORIENTED_EDGE('',*,*,#233,.F.);
#385=ORIENTED_EDGE('',*,*,#226,.T.);
#386=ORIENTED_EDGE('',*,*,#232,.F.);
#387=ORIENTED_EDGE('',*,*,#228,.F.);
#388=ORIENTED_EDGE('',*,*,#234,.F.);
#389=ORIENTED_EDGE('',*,*,#281,.T.);
#390=ORIENTED_EDGE('',*,*,#253,.F.);
#391=ORIENTED_EDGE('',*,*,#274,.F.);
#392=ORIENTED_EDGE('',*,*,#247,.T.);
#393=ORIENTED_EDGE('',*,*,#279,.T.);
#394=ORIENTED_EDGE('',*,*,#277,.T.);
#395=ORIENTED_EDGE('',*,*,#267,.T.);
#396=ORIENTED_EDGE('',*,*,#256,.T.);
#397=ORIENTED_EDGE('',*,*,#260,.T.);
#398=ORIENTED_EDGE('',*,*,#271,.T.);
#399=ORIENTED_EDGE('',*,*,#276,.T.);
#400=PLANE('',#458);
#401=PLANE('',#459);
#402=PLANE('',#460);
#403=PLANE('',#461);
#404=PLANE('',#462);
#405=PLANE('',#465);
#406=PLANE('',#466);
#407=PLANE('',#467);
#408=PLANE('',#468);
#409=PLANE('',#469);
#410=PLANE('',#470);
#411=PLANE('',#471);
#412=PLANE('',#474);
#413=PLANE('',#475);
#414=PLANE('',#478);
#415=PLANE('',#479);
#416=PLANE('',#480);
#417=PLANE('',#481);
#418=PLANE('',#482);
#419=PLANE('',#483);
#420=PLANE('',#484);
#421=ADVANCED_FACE('',(#25),#400,.T.);
#422=ADVANCED_FACE('',(#26),#401,.T.);
#423=ADVANCED_FACE('',(#27),#402,.T.);
#424=ADVANCED_FACE('',(#28),#403,.F.);
#425=ADVANCED_FACE('',(#29,#17,#18),#404,.F.);
#426=ADVANCED_FACE('',(#30),#405,.T.);
#427=ADVANCED_FACE('',(#31),#406,.T.);
#428=ADVANCED_FACE('',(#32),#407,.T.);
#429=ADVANCED_FACE('',(#33),#408,.F.);
#430=ADVANCED_FACE('',(#34),#409,.T.);
#431=ADVANCED_FACE('',(#35),#410,.T.);
#432=ADVANCED_FACE('',(#36,#19,#20),#411,.T.);
#433=ADVANCED_FACE('',(#37),#412,.T.);
#434=ADVANCED_FACE('',(#38),#413,.T.);
#435=ADVANCED_FACE('',(#39),#15,.F.);
#436=ADVANCED_FACE('',(#40),#16,.F.);
#437=ADVANCED_FACE('',(#41),#414,.T.);
#438=ADVANCED_FACE('',(#42),#415,.T.);
#439=ADVANCED_FACE('',(#43),#416,.T.);
#440=ADVANCED_FACE('',(#44),#417,.T.);
#441=ADVANCED_FACE('',(#45),#418,.T.);
#442=ADVANCED_FACE('',(#46),#419,.T.);
#443=ADVANCED_FACE('',(#47),#420,.T.);
#444=CLOSED_SHELL('',(#421,#422,#423,#424,#425,#426,#427,#428,#429,#430,
#431,#432,#433,#434,#435,#436,#437,#438,#439,#440,#441,#442,#443));
#445=DERIVED_UNIT_ELEMENT(#447,1.);
#446=DERIVED_UNIT_ELEMENT(#722,-3.);
#447=(
MASS_UNIT()
NAMED_UNIT(*)
SI_UNIT(.KILO.,.GRAM.)
);
#448=DERIVED_UNIT((#445,#446));
#449=MEASURE_REPRESENTATION_ITEM('density measure',
POSITIVE_RATIO_MEASURE(7850.),#448);
#450=PROPERTY_DEFINITION_REPRESENTATION(#455,#452);
#451=PROPERTY_DEFINITION_REPRESENTATION(#456,#453);
#452=REPRESENTATION('material name',(#454),#719);
#453=REPRESENTATION('density',(#449),#719);
#454=DESCRIPTIVE_REPRESENTATION_ITEM('Steel','Steel');
#455=PROPERTY_DEFINITION('material property','material name',#729);
#456=PROPERTY_DEFINITION('material property','density of part',#729);
#457=AXIS2_PLACEMENT_3D('placement',#596,#485,#486);
#458=AXIS2_PLACEMENT_3D('',#597,#487,#488);
#459=AXIS2_PLACEMENT_3D('',#606,#493,#494);
#460=AXIS2_PLACEMENT_3D('',#615,#499,#500);
#461=AXIS2_PLACEMENT_3D('',#618,#503,#504);
#462=AXIS2_PLACEMENT_3D('',#624,#508,#509);
#463=AXIS2_PLACEMENT_3D('',#635,#515,#516);
#464=AXIS2_PLACEMENT_3D('',#637,#517,#518);
#465=AXIS2_PLACEMENT_3D('',#638,#519,#520);
#466=AXIS2_PLACEMENT_3D('',#647,#525,#526);
#467=AXIS2_PLACEMENT_3D('',#656,#531,#532);
#468=AXIS2_PLACEMENT_3D('',#659,#535,#536);
#469=AXIS2_PLACEMENT_3D('',#665,#540,#541);
#470=AXIS2_PLACEMENT_3D('',#674,#546,#547);
#471=AXIS2_PLACEMENT_3D('',#680,#551,#552);
#472=AXIS2_PLACEMENT_3D('',#685,#555,#556);
#473=AXIS2_PLACEMENT_3D('',#687,#557,#558);
#474=AXIS2_PLACEMENT_3D('',#688,#559,#560);
#475=AXIS2_PLACEMENT_3D('',#693,#564,#565);
#476=AXIS2_PLACEMENT_3D('',#697,#568,#569);
#477=AXIS2_PLACEMENT_3D('',#699,#571,#572);
#478=AXIS2_PLACEMENT_3D('',#701,#574,#575);
#479=AXIS2_PLACEMENT_3D('',#704,#578,#579);
#480=AXIS2_PLACEMENT_3D('',#706,#581,#582);
#481=AXIS2_PLACEMENT_3D('',#710,#585,#586);
#482=AXIS2_PLACEMENT_3D('',#713,#589,#590);
#483=AXIS2_PLACEMENT_3D('',#715,#592,#593);
#484=AXIS2_PLACEMENT_3D('',#716,#594,#595);
#485=DIRECTION('axis',(0.,0.,1.));
#486=DIRECTION('refdir',(1.,0.,0.));
#487=DIRECTION('center_axis',(0.,-1.,0.));
#488=DIRECTION('ref_axis',(-1.,0.,0.));
#489=DIRECTION('',(1.,0.,0.));
#490=DIRECTION('',(0.,0.,-1.));
#491=DIRECTION('',(-1.,0.,0.));
#492=DIRECTION('',(0.,0.,-1.));
#493=DIRECTION('center_axis',(0.,1.,0.));
#494=DIRECTION('ref_axis',(1.,0.,0.));
#495=DIRECTION('',(-1.,0.,0.));
#496=DIRECTION('',(0.,0.,-1.));
#497=DIRECTION('',(1.,0.,0.));
#498=DIRECTION('',(0.,0.,-1.));
#499=DIRECTION('center_axis',(0.,0.,-1.));
#500=DIRECTION('ref_axis',(-1.,0.,0.));
#501=DIRECTION('',(0.,1.,0.));
#502=DIRECTION('',(0.,-1.,0.));
#503=DIRECTION('center_axis',(0.,0.,1.));
#504=DIRECTION('ref_axis',(1.,0.,0.));
#505=DIRECTION('',(0.,-1.,0.));
#506=DIRECTION('',(-1.,0.,0.));
#507=DIRECTION('',(0.,1.,0.));
#508=DIRECTION('center_axis',(0.,0.,1.));
#509=DIRECTION('ref_axis',(1.,0.,0.));
#510=DIRECTION('',(-1.,0.,0.));
#511=DIRECTION('',(4.02254719067086E-17,1.,0.));
#512=DIRECTION('',(1.,0.,0.));
#513=DIRECTION('',(-4.02254719067086E-17,-1.,0.));
#514=DIRECTION('',(-1.,0.,0.));
#515=DIRECTION('center_axis',(0.,0.,-1.));
#516=DIRECTION('ref_axis',(1.,0.,0.));
#517=DIRECTION('center_axis',(0.,0.,-1.));
#518=DIRECTION('ref_axis',(1.,0.,0.));
#519=DIRECTION('center_axis',(0.,-1.,0.));
#520=DIRECTION('ref_axis',(1.,0.,0.));
#521=DIRECTION('',(-1.,0.,0.));
#522=DIRECTION('',(0.,0.,1.));
#523=DIRECTION('',(1.,0.,0.));
#524=DIRECTION('',(0.,0.,1.));
#525=DIRECTION('center_axis',(0.,1.,0.));
#526=DIRECTION('ref_axis',(-1.,0.,0.));
#527=DIRECTION('',(1.,0.,0.));
#528=DIRECTION('',(0.,0.,1.));
#529=DIRECTION('',(-1.,0.,0.));
#530=DIRECTION('',(0.,0.,1.));
#531=DIRECTION('center_axis',(0.,0.,1.));
#532=DIRECTION('ref_axis',(1.,0.,0.));
#533=DIRECTION('',(0.,1.,0.));
#534=DIRECTION('',(0.,-1.,0.));
#535=DIRECTION('center_axis',(0.,0.,1.));
#536=DIRECTION('ref_axis',(1.,0.,0.));
#537=DIRECTION('',(1.,0.,0.));
#538=DIRECTION('',(0.,-1.,0.));
#539=DIRECTION('',(0.,1.,0.));
#540=DIRECTION('center_axis',(1.,1.60901887626834E-16,0.));
#541=DIRECTION('ref_axis',(-1.60901887626834E-16,1.,0.));
#542=DIRECTION('',(1.60901887626834E-16,-1.,0.));
#543=DIRECTION('',(0.,0.,1.));
#544=DIRECTION('',(-1.60901887626834E-16,1.,0.));
#545=DIRECTION('',(0.,0.,1.));
#546=DIRECTION('center_axis',(0.,-1.,0.));
#547=DIRECTION('ref_axis',(1.,0.,0.));
#548=DIRECTION('',(-1.,0.,0.));
#549=DIRECTION('',(1.,0.,0.));
#550=DIRECTION('',(0.,0.,1.));
#551=DIRECTION('center_axis',(0.,0.,1.));
#552=DIRECTION('ref_axis',(1.,0.,0.));
#553=DIRECTION('',(-1.,0.,0.));
#554=DIRECTION('',(-4.02254719067086E-17,-1.,0.));
#555=DIRECTION('center_axis',(0.,0.,-1.));
#556=DIRECTION('ref_axis',(1.,0.,0.));
#557=DIRECTION('center_axis',(0.,0.,-1.));
#558=DIRECTION('ref_axis',(1.,0.,0.));
#559=DIRECTION('center_axis',(0.,1.,0.));
#560=DIRECTION('ref_axis',(-1.,0.,0.));
#561=DIRECTION('',(-1.,0.,0.));
#562=DIRECTION('',(0.,0.,1.));
#563=DIRECTION('',(0.,0.,1.));
#564=DIRECTION('center_axis',(-1.,4.02254719067086E-17,0.));
#565=DIRECTION('ref_axis',(-4.02254719067086E-17,-1.,0.));
#566=DIRECTION('',(0.,0.,1.));
#567=DIRECTION('',(-4.02254719067086E-17,-1.,0.));
#568=DIRECTION('center_axis',(0.,0.,1.));
#569=DIRECTION('ref_axis',(1.,0.,0.));
#570=DIRECTION('',(0.,0.,-1.));
#571=DIRECTION('center_axis',(0.,0.,1.));
#572=DIRECTION('ref_axis',(1.,0.,0.));
#573=DIRECTION('',(0.,0.,-1.));
#574=DIRECTION('center_axis',(-1.,0.,0.));
#575=DIRECTION('ref_axis',(0.,-1.,0.));
#576=DIRECTION('',(0.,0.,1.));
#577=DIRECTION('',(0.,0.,1.));
#578=DIRECTION('center_axis',(0.,-1.,0.));
#579=DIRECTION('ref_axis',(1.,0.,0.));
#580=DIRECTION('',(1.,0.,0.));
#581=DIRECTION('center_axis',(1.,-4.02254719067086E-17,0.));
#582=DIRECTION('ref_axis',(4.02254719067086E-17,1.,0.));
#583=DIRECTION('',(4.02254719067086E-17,1.,0.));
#584=DIRECTION('',(0.,0.,1.));
#585=DIRECTION('center_axis',(0.,-1.,0.));
#586=DIRECTION('ref_axis',(1.,0.,0.));
#587=DIRECTION('',(1.,0.,0.));
#588=DIRECTION('',(0.,0.,1.));
#589=DIRECTION('center_axis',(1.,0.,0.));
#590=DIRECTION('ref_axis',(0.,1.,0.));
#591=DIRECTION('',(0.,0.,1.));
#592=DIRECTION('center_axis',(0.,-1.,0.));
#593=DIRECTION('ref_axis',(1.,0.,0.));
#594=DIRECTION('center_axis',(0.,0.,1.));
#595=DIRECTION('ref_axis',(1.,0.,0.));
#596=CARTESIAN_POINT('',(0.,0.,0.));
#597=CARTESIAN_POINT('Origin',(4.5,-15.8,1.));
#598=CARTESIAN_POINT('',(-4.5,-15.8,1.));
#599=CARTESIAN_POINT('',(4.5,-15.8,1.));
#600=CARTESIAN_POINT('',(2.25,-15.8,1.));
#601=CARTESIAN_POINT('',(-4.5,-15.8,-2.77555756156289E-16));
#602=CARTESIAN_POINT('',(-4.5,-15.8,1.));
#603=CARTESIAN_POINT('',(4.5,-15.8,-2.77555756156289E-16));
#604=CARTESIAN_POINT('',(-4.5,-15.8,-2.77555756156289E-16));
#605=CARTESIAN_POINT('',(4.5,-15.8,1.));
#606=CARTESIAN_POINT('Origin',(-4.5,-13.8,1.));
#607=CARTESIAN_POINT('',(4.5,-13.8,1.));
#608=CARTESIAN_POINT('',(-4.5,-13.8,1.));
#609=CARTESIAN_POINT('',(-2.25,-13.8,1.));
#610=CARTESIAN_POINT('',(4.5,-13.8,-2.77555756156289E-16));
#611=CARTESIAN_POINT('',(4.5,-13.8,1.));
#612=CARTESIAN_POINT('',(-4.5,-13.8,-2.77555756156289E-16));
#613=CARTESIAN_POINT('',(-4.5,-13.8,-2.77555756156289E-16));
#614=CARTESIAN_POINT('',(-4.5,-13.8,1.));
#615=CARTESIAN_POINT('Origin',(0.,-14.8,-2.77555756156289E-16));
#616=CARTESIAN_POINT('',(-4.5,-18.8,-2.77555756156289E-16));
#617=CARTESIAN_POINT('',(4.5,-13.8,-2.77555756156289E-16));
#618=CARTESIAN_POINT('Origin',(1.11022302462516E-15,-2.5,1.));
#619=CARTESIAN_POINT('',(4.5,-18.8,1.));
#620=CARTESIAN_POINT('',(4.5,-13.8,1.));
#621=CARTESIAN_POINT('',(-4.5,-18.8,1.));
#622=CARTESIAN_POINT('',(4.5,-18.8,1.));
#623=CARTESIAN_POINT('',(-4.5,-18.8,1.));
#624=CARTESIAN_POINT('Origin',(1.11022302462516E-15,-2.5,1.));
#625=CARTESIAN_POINT('',(-8.25,-13.8,1.));
#626=CARTESIAN_POINT('',(8.25,-13.8,1.));
#627=CARTESIAN_POINT('',(-8.25,13.8,1.));
#628=CARTESIAN_POINT('',(-8.25,-13.8,1.));
#629=CARTESIAN_POINT('',(8.25,13.8,1.));
#630=CARTESIAN_POINT('',(-8.25,13.8,1.));
#631=CARTESIAN_POINT('',(8.25,-13.8,1.));
#632=CARTESIAN_POINT('',(8.25,13.8,1.));
#633=CARTESIAN_POINT('',(8.25,-13.8,1.));
#634=CARTESIAN_POINT('',(3.08,-8.83,1.));
#635=CARTESIAN_POINT('Origin',(4.48,-8.83,1.));
#636=CARTESIAN_POINT('',(3.08,11.03,1.));
#637=CARTESIAN_POINT('Origin',(4.48,11.03,1.));
#638=CARTESIAN_POINT('Origin',(-4.5,-19.5,2.6));
#639=CARTESIAN_POINT('',(4.5,-19.5,2.6));
#640=CARTESIAN_POINT('',(-4.5,-19.5,2.6));
#641=CARTESIAN_POINT('',(4.5,-19.5,2.6));
#642=CARTESIAN_POINT('',(4.5,-19.5,6.4));
#643=CARTESIAN_POINT('',(4.5,-19.5,2.6));
#644=CARTESIAN_POINT('',(-4.5,-19.5,6.4));
#645=CARTESIAN_POINT('',(4.5,-19.5,6.4));
#646=CARTESIAN_POINT('',(-4.5,-19.5,2.6));
#647=CARTESIAN_POINT('Origin',(4.5,-13.8,2.6));
#648=CARTESIAN_POINT('',(-4.5,-13.8,2.6));
#649=CARTESIAN_POINT('',(4.5,-13.8,2.6));
#650=CARTESIAN_POINT('',(2.25,-13.8,2.6));
#651=CARTESIAN_POINT('',(-4.5,-13.8,6.4));
#652=CARTESIAN_POINT('',(-4.5,-13.8,2.6));
#653=CARTESIAN_POINT('',(4.5,-13.8,6.4));
#654=CARTESIAN_POINT('',(-4.5,-13.8,6.4));
#655=CARTESIAN_POINT('',(4.5,-13.8,2.6));
#656=CARTESIAN_POINT('Origin',(0.,-16.65,6.4));
#657=CARTESIAN_POINT('',(4.5,-13.8,6.4));
#658=CARTESIAN_POINT('',(-4.5,-18.8,6.4));
#659=CARTESIAN_POINT('Origin',(0.,-16.65,2.6));
#660=CARTESIAN_POINT('',(-4.5,-18.8,2.6));
#661=CARTESIAN_POINT('',(4.5,-18.8,2.6));
#662=CARTESIAN_POINT('',(4.5,-18.8,2.6));
#663=CARTESIAN_POINT('',(4.5,-13.8,2.6));
#664=CARTESIAN_POINT('',(-4.5,-18.8,2.6));
#665=CARTESIAN_POINT('Origin',(7.25,-11.6,1.));
#666=CARTESIAN_POINT('',(7.25,13.8,2.6));
#667=CARTESIAN_POINT('',(7.25,-11.6,2.6));
#668=CARTESIAN_POINT('',(7.25,-7.05,2.6));
#669=CARTESIAN_POINT('',(7.25,13.8,3.4));
#670=CARTESIAN_POINT('',(7.25,13.8,1.));
#671=CARTESIAN_POINT('',(7.25,-11.6,3.4));
#672=CARTESIAN_POINT('',(7.25,13.8,3.4));
#673=CARTESIAN_POINT('',(7.25,-11.6,1.));
#674=CARTESIAN_POINT('Origin',(-8.25,-11.6,1.));
#675=CARTESIAN_POINT('',(-8.25,-11.6,2.6));
#676=CARTESIAN_POINT('',(-4.125,-11.6,2.6));
#677=CARTESIAN_POINT('',(-8.25,-11.6,3.4));
#678=CARTESIAN_POINT('',(7.25,-11.6,3.4));
#679=CARTESIAN_POINT('',(-8.25,-11.6,1.));
#680=CARTESIAN_POINT('Origin',(-0.499999999999998,1.1,3.4));
#681=CARTESIAN_POINT('',(-8.25,13.8,3.4));
#682=CARTESIAN_POINT('',(-8.25,13.8,3.4));
#683=CARTESIAN_POINT('',(-8.25,-13.8,3.4));
#684=CARTESIAN_POINT('',(3.08,11.03,3.4));
#685=CARTESIAN_POINT('Origin',(4.48,11.03,3.4));
#686=CARTESIAN_POINT('',(3.08,-8.83,3.4));
#687=CARTESIAN_POINT('Origin',(4.48,-8.83,3.4));
#688=CARTESIAN_POINT('Origin',(8.25,13.8,1.));
#689=CARTESIAN_POINT('',(8.25,13.8,2.6));
#690=CARTESIAN_POINT('',(-8.25,13.8,2.6));
#691=CARTESIAN_POINT('',(8.25,13.8,1.));
#692=CARTESIAN_POINT('',(-8.25,13.8,1.));
#693=CARTESIAN_POINT('Origin',(-8.25,13.8,1.));
#694=CARTESIAN_POINT('',(-8.25,-13.8,2.6));
#695=CARTESIAN_POINT('',(-8.25,-13.8,1.));
#696=CARTESIAN_POINT('',(-8.25,-13.8,2.6));
#697=CARTESIAN_POINT('Origin',(4.48,-8.83,1.));
#698=CARTESIAN_POINT('',(3.08,-8.83,1.));
#699=CARTESIAN_POINT('Origin',(4.48,11.03,1.));
#700=CARTESIAN_POINT('',(3.08,11.03,1.));
#701=CARTESIAN_POINT('Origin',(-4.5,-13.8,1.));
#702=CARTESIAN_POINT('',(-4.5,-18.8,1.));
#703=CARTESIAN_POINT('',(-4.5,-13.8,1.));
#704=CARTESIAN_POINT('Origin',(-8.25,-13.8,1.));
#705=CARTESIAN_POINT('',(8.25,-13.8,2.6));
#706=CARTESIAN_POINT('Origin',(8.25,-13.8,1.));
#707=CARTESIAN_POINT('',(8.25,-13.8,2.6));
#708=CARTESIAN_POINT('',(8.25,13.8,2.6));
#709=CARTESIAN_POINT('',(8.25,-13.8,1.));
#710=CARTESIAN_POINT('Origin',(4.5,-13.8,1.));
#711=CARTESIAN_POINT('',(8.25,-13.8,2.6));
#712=CARTESIAN_POINT('',(4.5,-13.8,1.));
#713=CARTESIAN_POINT('Origin',(4.5,-18.8,1.));
#714=CARTESIAN_POINT('',(4.5,-18.8,1.));
#715=CARTESIAN_POINT('Origin',(-4.5,-18.8,1.));
#716=CARTESIAN_POINT('Origin',(1.11022302462516E-15,-2.5,2.6));
#717=UNCERTAINTY_MEASURE_WITH_UNIT(LENGTH_MEASURE(0.01),#721,
'DISTANCE_ACCURACY_VALUE',
'Maximum model space distance between geometric entities at asserted c
onnectivities');
#718=UNCERTAINTY_MEASURE_WITH_UNIT(LENGTH_MEASURE(0.01),#721,
'DISTANCE_ACCURACY_VALUE',
'Maximum model space distance between geometric entities at asserted c
onnectivities');
#719=(
GEOMETRIC_REPRESENTATION_CONTEXT(3)
GLOBAL_UNCERTAINTY_ASSIGNED_CONTEXT((#717))
GLOBAL_UNIT_ASSIGNED_CONTEXT((#721,#723,#724))
REPRESENTATION_CONTEXT('','3D')
);
#720=(
GEOMETRIC_REPRESENTATION_CONTEXT(3)
GLOBAL_UNCERTAINTY_ASSIGNED_CONTEXT((#718))
GLOBAL_UNIT_ASSIGNED_CONTEXT((#721,#723,#724))
REPRESENTATION_CONTEXT('','3D')
);
#721=(
LENGTH_UNIT()
NAMED_UNIT(*)
SI_UNIT(.MILLI.,.METRE.)
);
#722=(
LENGTH_UNIT()
NAMED_UNIT(*)
SI_UNIT($,.METRE.)
);
#723=(
NAMED_UNIT(*)
PLANE_ANGLE_UNIT()
SI_UNIT($,.RADIAN.)
);
#724=(
NAMED_UNIT(*)
SI_UNIT($,.STERADIAN.)
SOLID_ANGLE_UNIT()
);
#725=SHAPE_DEFINITION_REPRESENTATION(#726,#727);
#726=PRODUCT_DEFINITION_SHAPE('',$,#729);
#727=SHAPE_REPRESENTATION('',(#457),#719);
#728=PRODUCT_DEFINITION_CONTEXT('part definition',#733,'design');
#729=PRODUCT_DEFINITION('PCB','PCB',#730,#728);
#730=PRODUCT_DEFINITION_FORMATION('',$,#735);
#731=PRODUCT_RELATED_PRODUCT_CATEGORY('PCB','PCB',(#735));
#732=APPLICATION_PROTOCOL_DEFINITION('international standard',
'automotive_design',2009,#733);
#733=APPLICATION_CONTEXT(
'Core Data for Automotive Mechanical Design Process');
#734=PRODUCT_CONTEXT('part definition',#733,'mechanical');
#735=PRODUCT('PCB','PCB',$,(#734));
#736=PRESENTATION_STYLE_ASSIGNMENT((#738));
#737=PRESENTATION_STYLE_ASSIGNMENT((#739));
#738=SURFACE_STYLE_USAGE(.BOTH.,#740);
#739=SURFACE_STYLE_USAGE(.BOTH.,#741);
#740=SURFACE_SIDE_STYLE('',(#742));
#741=SURFACE_SIDE_STYLE('',(#743));
#742=SURFACE_STYLE_FILL_AREA(#744);
#743=SURFACE_STYLE_FILL_AREA(#745);
#744=FILL_AREA_STYLE('Paint - Enamel Glossy (Grey)',(#746));
#745=FILL_AREA_STYLE('Paint - Enamel Glossy (Dark Grey)',(#747));
#746=FILL_AREA_STYLE_COLOUR('Paint - Enamel Glossy (Grey)',#748);
#747=FILL_AREA_STYLE_COLOUR('Paint - Enamel Glossy (Dark Grey)',#749);
#748=COLOUR_RGB('Paint - Enamel Glossy (Grey)',0.701960784313725,0.701960784313725,
0.701960784313725);
#749=COLOUR_RGB('Paint - Enamel Glossy (Dark Grey)',0.486274509803922,0.109803921568627,
0.886274509803922);
ENDSEC;
END-ISO-10303-21;
